                                                                        S      1
,,,8HBQT-1230,22HAutoCAD 2016 - English,62HAutodesk Translation FrameworG      1
k DWG producer (atf_dwg_producer),32,38,7,99,15,,1.,1,4HINCH,1,0.08,15H2G      2
0170328.110552,0.000393700787401575,10000.,,7Hunknown,11,0,15H20050520.0G      3
31856;                                                                  G      4
     186       1                       0                        00000000D      1
     186            -113       1       0                               0D      2
     514       2                                                00010000D      3
     514                       1       1                               0D      4
     510       3                                                00010000D      5
     510            -113       1       1                               0D      6
     510       4                                                00010000D      7
     510            -113       1       1                               0D      8
     510       5                                                00010000D      9
     510            -113       1       1                               0D     10
     510       6                                                00010000D     11
     510            -113       1       1                               0D     12
     510       7                                                00010000D     13
     510            -113       1       1                               0D     14
     510       8                                                00010000D     15
     510            -113       1       1                               0D     16
     510       9                                                00010000D     17
     510            -113       1       1                               0D     18
     510      10                                                00010000D     19
     510            -113       1       1                               0D     20
     510      11                                                00010000D     21
     510            -113       1       1                               0D     22
     510      12                                                00010000D     23
     510            -113       1       1                               0D     24
     508      13                                                00010000D     25
     508                       1       1                               0D     26
     508      14                                                00010000D     27
     508                       1       1                               0D     28
     508      15                                                00010000D     29
     508                       1       1                               0D     30
     508      16                                                00010000D     31
     508                       1       1                               0D     32
     508      17                                                00010000D     33
     508                       1       1                               0D     34
     508      18                                                00010000D     35
     508                       1       1                               0D     36
     508      19                                                00010000D     37
     508                       1       1                               0D     38
     508      20                                                00010000D     39
     508                       1       1                               0D     40
     508      21                                                00010000D     41
     508                       1       1                               0D     42
     508      22                                                00010000D     43
     508                       1       1                               0D     44
     126      23                                                00010000D     45
     126       0               2       0                               0D     46
     126      25                                                00010000D     47
     126       0               4       0                               0D     48
     126      29                                                00010000D     49
     126       0               2       0                               0D     50
     126      31                                                00010000D     51
     126       0               5       0                               0D     52
     126      36                                                00010000D     53
     126       0               2       0                               0D     54
     126      38                                                00010000D     55
     126       0               5       0                               0D     56
     126      43                                                00010000D     57
     126       0               2       0                               0D     58
     126      45                                                00010000D     59
     126       0               2       0                               0D     60
     126      47                                                00010000D     61
     126       0               4       0                               0D     62
     126      51                                                00010000D     63
     126       0               2       0                               0D     64
     126      53                                                00010000D     65
     126       0               2       0                               0D     66
     126      55                                                00010000D     67
     126       0               2       0                               0D     68
     126      57                                                00010000D     69
     126       0               2       0                               0D     70
     126      59                                                00010000D     71
     126       0               2       0                               0D     72
     126      61                                                00010000D     73
     126       0               2       0                               0D     74
     126      63                                                00010000D     75
     126       0               2       0                               0D     76
     126      65                                                00010000D     77
     126       0               2       0                               0D     78
     126      67                                                00010000D     79
     126       0               2       0                               0D     80
     126      69                                                00010000D     81
     126       0               2       0                               0D     82
     126      71                                                00010000D     83
     126       0               2       0                               0D     84
     128      73                                                00010000D     85
     128       0    -113       9       0                               0D     86
     128      82                                                00010000D     87
     128       0    -113       7       0                               0D     88
     128      89                                                00010000D     89
     128       0    -113       7       0                               0D     90
     128      96                                                00010000D     91
     128       0    -113       7       0                               0D     92
     128     103                                                00010000D     93
     128       0    -113       3       0                               0D     94
     128     106                                                00010000D     95
     128       0    -113       4       0                               0D     96
     128     110                                                00010000D     97
     128       0    -113       3       0                               0D     98
     128     113                                                00010000D     99
     128       0    -113       3       0                               0D    100
     128     116                                                00010000D    101
     128       0    -113       3       0                               0D    102
     128     119                                                00010000D    103
     128       0    -113       3       0                               0D    104
     502     122                                                00010000D    105
     502                       3       1                               0D    106
     504     125                                                00010001D    107
     504                       6       1                               0D    108
     406     131                                                00000000D    109
     406                       1      15                               0D    110
     406     132                       0                        00000000D    111
     406                       1       3                               0D    112
     314     133                                                00000200D    113
     314                       1       0                               0D    114
186,3,1,0,0,1,109;                                                     1P      1
514,10,5,1,7,1,9,1,11,1,13,1,15,1,17,1,19,1,21,1,23,1;                 3P      2
510,85,1,1,25;                                                         5P      3
510,87,1,1,27;                                                         7P      4
510,89,1,1,29;                                                         9P      5
510,91,1,1,31;                                                        11P      6
510,93,1,1,33;                                                        13P      7
510,95,1,1,35;                                                        15P      8
510,97,1,1,37;                                                        17P      9
510,99,1,1,39;                                                        19P     10
510,101,1,1,41;                                                       21P     11
510,103,1,1,43;                                                       23P     12
508,4,0,107,1,1,0,0,107,2,1,0,0,107,3,1,0,0,107,4,1,0;                25P     13
508,4,0,107,5,1,0,0,107,6,1,0,0,107,7,1,0,0,107,4,0,0;                27P     14
508,4,0,107,8,1,0,0,107,9,1,0,0,107,10,1,0,0,107,2,0,0;               29P     15
508,4,0,107,11,1,0,0,107,9,0,0,0,107,12,1,0,0,107,6,0,0;              31P     16
508,4,0,107,5,0,0,0,107,13,1,0,0,107,14,1,0,0,107,15,0,0;             33P     17
508,4,0,107,3,0,0,0,107,16,0,0,0,107,17,0,0,0,107,13,0,0;             35P     18
508,4,0,107,1,0,0,0,107,7,0,0,0,107,12,0,0,0,107,8,0,0;               37P     19
508,4,0,107,10,0,0,0,107,18,0,0,0,107,19,0,0,0,107,16,1,0;            39P     20
508,4,0,107,17,1,0,0,107,19,1,0,0,107,20,0,0,0,107,14,0,0;            41P     21
508,4,0,107,11,0,0,0,107,15,1,0,0,107,20,1,0,0,107,18,1,0;            43P     22
126,1,1,0,0,1,0,-899.5,-899.5,298.5,298.5,1.,1.,599.,-18.,2.,         45P     23
-599.,-18.,2.,-899.5,298.5,0.,0.,0.;                                  45P     24
126,2,2,0,0,0,0,-1.5707963267949,-1.5707963267949,                    47P     25
-1.5707963267949,0.,0.,0.,1.,0.707106781179118,1.,-599.,-18.,2.,      47P     26
-601.,-18.,1.11022302462516D-16,-601.,-16.,0.,-1.5707963267949,       47P     27
0.,0.,0.,0.;                                                          47P     28
126,1,1,0,0,1,0,-300.5,-300.5,901.5,901.5,1.,1.,-601.,-16.,0.,        49P     29
601.,-16.,0.,-300.5,901.5,0.,0.,0.;                                   49P     30
126,2,2,0,0,0,0,-3.14159265358979,-3.14159265358979,                  51P     31
-3.14159265358979,-1.5707963267949,-1.5707963267949,                  51P     32
-1.5707963267949,1.,0.707106781179118,1.,601.,-16.,0.,601.,-18.,      51P     33
4.55531587302282D-16,599.,-18.,2.,-3.14159265358979,                  51P     34
-1.5707963267949,0.,0.,0.;                                            51P     35
126,1,1,0,0,1,0,0.,0.,301.,301.,1.,1.,601.,-16.,0.,601.,-16.,         53P     36
301.,0.,301.,0.,0.,0.;                                                53P     37
126,2,2,0,0,0,0,-3.14159265358979,-3.14159265358979,                  55P     38
-3.14159265358979,-1.5707963267949,-1.5707963267949,                  55P     39
-1.5707963267949,1.,0.707106781179126,1.,601.,-16.,301.,601.,         55P     40
-18.,301.,599.,-18.,299.,-3.14159265358979,-1.5707963267949,0.,       55P     41
0.,0.;                                                                55P     42
126,1,1,0,0,1,0,-299.,-299.,-2.,-2.,1.,1.,599.,-18.,299.,599.,        57P     43
-18.,2.,-299.,-2.,0.,0.,0.;                                           57P     44
126,1,1,0,0,1,0,2.,2.,299.,299.,1.,1.,-599.,-18.,2.,-599.,-18.,       59P     45
299.,2.,299.,0.,0.,0.;                                                59P     46
126,2,2,0,0,0,0,1.5707963267949,1.5707963267949,1.5707963267949,      61P     47
3.14159265358979,3.14159265358979,3.14159265358979,1.,                61P     48
0.707106781179126,1.,-599.,-18.,299.,-601.,-18.,301.,-601.,-16.,      61P     49
301.,1.5707963267949,3.14159265358979,0.,0.,0.;                       61P     50
126,1,1,0,0,1,0,-301.,-301.,0.,0.,1.,1.,-601.,-16.,301.,-601.,        63P     51
-16.,0.,-301.,0.,0.,0.,0.;                                            63P     52
126,1,1,0,0,1,0,-1202.,-1202.,0.,0.,1.,1.,601.,-16.,301.,-601.,       65P     53
-16.,301.,-1202.,0.,0.,0.,0.;                                         65P     54
126,1,1,0,0,1,0,2.,2.,1200.,1200.,1.,1.,-599.,-18.,299.,599.,         67P     55
-18.,299.,2.,1200.,0.,0.,0.;                                          67P     56
126,1,1,0,0,1,0,2.,2.,18.,18.,1.,1.,601.,-16.,0.,601.,0.,0.,2.,       69P     57
18.,0.,0.,0.;                                                         69P     58
126,1,1,0,0,1,0,0.,0.,301.,301.,1.,1.,601.,0.,0.,601.,0.,301.,        71P     59
0.,301.,0.,0.,0.;                                                     71P     60
126,1,1,0,0,1,0,2.,2.,18.,18.,1.,1.,601.,-16.,301.,601.,0.,301.,      73P     61
2.,18.,0.,0.,0.;                                                      73P     62
126,1,1,0,0,1,0,0.,0.,16.,16.,1.,1.,-601.,0.,0.,-601.,-16.,0.,        75P     63
0.,16.,0.,0.,0.;                                                      75P     64
126,1,1,0,0,1,0,0.,0.,1202.,1202.,1.,1.,601.,0.,0.,-601.,0.,0.,       77P     65
0.,1202.,0.,0.,0.;                                                    77P     66
126,1,1,0,0,1,0,0.,0.,16.,16.,1.,1.,-601.,0.,301.,-601.,-16.,         79P     67
301.,0.,16.,0.,0.,0.;                                                 79P     68
126,1,1,0,0,1,0,0.,0.,301.,301.,1.,1.,-601.,0.,0.,-601.,0.,301.,      81P     69
0.,301.,0.,0.,0.;                                                     81P     70
126,1,1,0,0,1,0,0.,0.,1202.,1202.,1.,1.,601.,0.,301.,-601.,0.,        83P     71
301.,0.,1202.,0.,0.,0.;                                               83P     72
128,1,2,1,2,0,0,0,0,0,-150.25,-150.25,450.75,450.75,                  85P     73
-0.785398163397448,-0.785398163397448,-0.785398163397448,             85P     74
0.785398163397448,0.785398163397448,0.785398163397448,1.,1.,          85P     75
0.707106781186548,0.707106781186548,1.,1.,601.,-18.,                  85P     76
1.9999999999976,-601.,-18.,1.9999999999976,601.,                      85P     77
-17.9999999999927,4.44089209850063D-16,-601.,-17.9999999999927,       85P     78
4.44089209850063D-16,601.,-16.,2.40363284831346D-12,-601.,-16.,       85P     79
2.40363284831346D-12,-150.25,450.75,-0.785398163397448,               85P     80
0.785398163397448;                                                    85P     81
128,1,2,1,2,0,0,0,0,0,0.,0.,150.5,150.5,-0.785398163397448,           87P     82
-0.785398163397448,-0.785398163397448,0.785398163397448,              87P     83
0.785398163397448,0.785398163397448,1.,1.,0.707106781186548,          87P     84
0.707106781186548,1.,1.,599.,-18.,301.,599.,-18.,0.,                  87P     85
600.999999999993,-17.9999999999927,301.,600.999999999993,             87P     86
-17.9999999999927,0.,601.,-16.,301.,601.,-16.,0.,0.,150.5,            87P     87
-0.785398163397448,0.785398163397448;                                 87P     88
128,1,2,1,2,0,0,0,0,0,0.,0.,150.5,150.5,-0.785398163397448,           89P     89
-0.785398163397448,-0.785398163397448,0.785398163397448,              89P     90
0.785398163397448,0.785398163397448,1.,1.,0.707106781186548,          89P     91
0.707106781186548,1.,1.,-601.,-16.,301.,-601.,-16.,0.,                89P     92
-600.999999999993,-17.9999999999927,301.,-600.999999999993,           89P     93
-17.9999999999927,0.,-599.,-18.,301.,-599.,-18.,0.,0.,150.5,          89P     94
-0.785398163397448,0.785398163397448;                                 89P     95
128,1,2,1,2,0,0,0,0,0,0.,0.,601.,601.,-0.785398163397448,             91P     96
-0.785398163397448,-0.785398163397448,0.785398163397448,              91P     97
0.785398163397448,0.785398163397448,1.,1.,0.707106781186548,          91P     98
0.707106781186548,1.,1.,601.,-16.,300.999999999998,-601.,-16.,        91P     99
300.999999999998,601.,-17.9999999999927,301.,-601.,                   91P    100
-17.9999999999927,301.,601.,-18.,299.000000000002,-601.,-18.,         91P    101
299.000000000002,0.,601.,-0.785398163397448,0.785398163397448;        91P    102
128,1,1,1,1,0,0,1,0,0,2.,2.,18.,18.,0.,0.,301.,301.,1.,1.,1.,1.,      93P    103
601.,-16.,0.,601.,0.,0.,601.,-16.,301.,601.,0.,301.,2.,18.,0.,        93P    104
301.;                                                                 93P    105
128,1,1,1,1,0,0,1,0,0,-601.,-601.,601.,601.,-7.00000000000728,        95P    106
-7.00000000000728,8.99999999999272,8.99999999999272,1.,1.,1.,1.,      95P    107
601.,-16.,0.,-601.,-16.,0.,601.,0.,0.,-601.,0.,0.,-601.,601.,         95P    108
-7.00000000000728,8.99999999999272;                                   95P    109
128,1,1,1,1,0,0,1,0,0,2.,2.,1200.,1200.,2.,2.,299.,299.,1.,1.,        97P    110
1.,1.,-599.,-18.,2.,599.,-18.,2.,-599.,-18.,299.,599.,-18.,299.,      97P    111
2.,1200.,2.,299.;                                                     97P    112
128,1,1,1,1,0,0,1,0,0,0.,0.,16.,16.,0.,0.,301.,301.,1.,1.,1.,1.,      99P    113
-601.,0.,0.,-601.,-16.,0.,-601.,0.,301.,-601.,-16.,301.,0.,16.,       99P    114
0.,301.;                                                              99P    115
128,1,1,1,1,0,0,1,0,0,0.,0.,1202.,1202.,0.,0.,301.,301.,1.,1.,       101P    116
1.,1.,601.,0.,0.,-601.,0.,0.,601.,0.,301.,-601.,0.,301.,0.,          101P    117
1202.,0.,301.;                                                       101P    118
128,1,1,1,1,0,0,1,0,0,0.,0.,1202.,1202.,2.,2.,18.,18.,1.,1.,1.,      103P    119
1.,-601.,-16.,301.,601.,-16.,301.,-601.,0.,301.,601.,0.,301.,0.,     103P    120
1202.,2.,18.;                                                        103P    121
502,12,599.,-18.,2.,-599.,-18.,2.,-601.,-16.,0.,601.,-16.,0.,        105P    122
601.,-16.,301.,599.,-18.,299.,-599.,-18.,299.,-601.,-16.,301.,       105P    123
601.,0.,0.,601.,0.,301.,-601.,0.,0.,-601.,0.,301.;                   105P    124
504,20,45,105,1,105,2,47,105,2,105,3,49,105,3,105,4,51,105,4,        107P    125
105,1,53,105,4,105,5,55,105,5,105,6,57,105,6,105,1,59,105,2,105,     107P    126
7,61,105,7,105,8,63,105,8,105,3,65,105,5,105,8,67,105,7,105,6,       107P    127
69,105,4,105,9,71,105,9,105,10,73,105,5,105,10,75,105,11,105,3,      107P    128
77,105,9,105,11,79,105,12,105,8,81,105,11,105,12,83,105,10,105,      107P    129
12;                                                                  107P    130
406,1,2H77;                                                          109P    131
406,2,0,1H0;                                                         111P    132
314,100.,100.,100.,;                                                 113P    133
S      1G      4D    114P    133                                        T      1
