ISO-10303-21;
HEADER;
FILE_DESCRIPTION((''),'2;1');
FILE_NAME('JCA0540CH_ASM','2020-12-09T15:06:38',('25393'),(''),
'CREO PARAMETRIC BY PTC INC, 2018020','CREO PARAMETRIC BY PTC INC, 2018020','');
FILE_SCHEMA(('CONFIG_CONTROL_DESIGN'));
ENDSEC;
DATA;
#1=CARTESIAN_POINT('',(0.E0,0.E0,0.E0));
#2=DIRECTION('',(0.E0,0.E0,-1.E0));
#3=DIRECTION('',(0.E0,1.E0,0.E0));
#4=AXIS2_PLACEMENT_3D('',#1,#2,#3);
#6=CARTESIAN_POINT('',(0.E0,0.E0,0.E0));
#7=DIRECTION('',(0.E0,0.E0,-1.E0));
#8=DIRECTION('',(0.E0,-1.E0,0.E0));
#9=AXIS2_PLACEMENT_3D('',#6,#7,#8);
#11=CARTESIAN_POINT('',(-2.719074965185E-13,2.45E1,-5.E-1));
#12=DIRECTION('',(1.E0,1.109876079930E-14,0.E0));
#13=DIRECTION('',(-1.109876079930E-14,1.E0,0.E0));
#14=AXIS2_PLACEMENT_3D('',#11,#12,#13);
#16=CARTESIAN_POINT('',(0.E0,0.E0,-5.E-1));
#17=DIRECTION('',(0.E0,0.E0,-1.E0));
#18=DIRECTION('',(0.E0,1.E0,0.E0));
#19=AXIS2_PLACEMENT_3D('',#16,#17,#18);
#21=DIRECTION('',(0.E0,0.E0,1.E0));
#22=VECTOR('',#21,9.5E0);
#23=CARTESIAN_POINT('',(0.E0,2.5E1,-1.E1));
#24=LINE('',#23,#22);
#25=CARTESIAN_POINT('',(0.E0,0.E0,-5.E-1));
#26=DIRECTION('',(0.E0,0.E0,-1.E0));
#27=DIRECTION('',(0.E0,-1.E0,0.E0));
#28=AXIS2_PLACEMENT_3D('',#25,#26,#27);
#30=DIRECTION('',(0.E0,0.E0,-1.E0));
#31=VECTOR('',#30,9.5E0);
#32=CARTESIAN_POINT('',(-1.083776988478E-14,-2.5E1,-5.E-1));
#33=LINE('',#32,#31);
#34=CARTESIAN_POINT('',(2.858824288410E-13,-2.45E1,-5.E-1));
#35=DIRECTION('',(-1.E0,-1.166861746116E-14,0.E0));
#36=DIRECTION('',(1.166861746116E-14,-1.E0,0.E0));
#37=AXIS2_PLACEMENT_3D('',#34,#35,#36);
#39=CARTESIAN_POINT('',(0.E0,0.E0,-1.E1));
#40=DIRECTION('',(0.E0,0.E0,1.E0));
#41=DIRECTION('',(0.E0,-1.E0,0.E0));
#42=AXIS2_PLACEMENT_3D('',#39,#40,#41);
#44=CARTESIAN_POINT('',(0.E0,0.E0,-1.E1));
#45=DIRECTION('',(0.E0,0.E0,-1.E0));
#46=DIRECTION('',(0.E0,-1.E0,0.E0));
#47=AXIS2_PLACEMENT_3D('',#44,#45,#46);
#49=CARTESIAN_POINT('',(0.E0,-2.5E1,-1.E1));
#50=CARTESIAN_POINT('',(0.E0,2.5E1,-1.E1));
#51=VERTEX_POINT('',#49);
#52=VERTEX_POINT('',#50);
#53=CARTESIAN_POINT('',(0.E0,2.5E1,-5.E-1));
#54=CARTESIAN_POINT('',(0.E0,-2.5E1,-5.E-1));
#55=VERTEX_POINT('',#53);
#56=VERTEX_POINT('',#54);
#57=CARTESIAN_POINT('',(0.E0,2.45E1,0.E0));
#58=CARTESIAN_POINT('',(0.E0,-2.45E1,0.E0));
#59=VERTEX_POINT('',#57);
#60=VERTEX_POINT('',#58);
#61=CARTESIAN_POINT('',(0.E0,0.E0,0.E0));
#62=DIRECTION('',(0.E0,0.E0,1.E0));
#63=DIRECTION('',(0.E0,1.E0,0.E0));
#64=AXIS2_PLACEMENT_3D('',#61,#62,#63);
#65=PLANE('',#64);
#67=ORIENTED_EDGE('',*,*,#66,.T.);
#69=ORIENTED_EDGE('',*,*,#68,.T.);
#70=EDGE_LOOP('',(#67,#69));
#71=FACE_OUTER_BOUND('',#70,.F.);
#72=ADVANCED_FACE('',(#71),#65,.T.);
#73=CARTESIAN_POINT('',(0.E0,0.E0,-5.E-1));
#74=DIRECTION('',(0.E0,0.E0,1.E0));
#75=DIRECTION('',(-4.239516436717E-3,9.999910132098E-1,0.E0));
#76=AXIS2_PLACEMENT_3D('',#73,#74,#75);
#77=TOROIDAL_SURFACE('',#76,2.45E1,5.E-1);
#79=ORIENTED_EDGE('',*,*,#78,.T.);
#81=ORIENTED_EDGE('',*,*,#80,.T.);
#82=ORIENTED_EDGE('',*,*,#66,.F.);
#84=ORIENTED_EDGE('',*,*,#83,.F.);
#85=EDGE_LOOP('',(#79,#81,#82,#84));
#86=FACE_OUTER_BOUND('',#85,.F.);
#87=ADVANCED_FACE('',(#86),#77,.T.);
#88=CARTESIAN_POINT('',(0.E0,0.E0,-1.05E1));
#89=DIRECTION('',(0.E0,0.E0,1.E0));
#90=DIRECTION('',(0.E0,1.E0,0.E0));
#91=AXIS2_PLACEMENT_3D('',#88,#89,#90);
#92=CYLINDRICAL_SURFACE('',#91,2.5E1);
#94=ORIENTED_EDGE('',*,*,#93,.F.);
#96=ORIENTED_EDGE('',*,*,#95,.F.);
#98=ORIENTED_EDGE('',*,*,#97,.F.);
#99=ORIENTED_EDGE('',*,*,#78,.F.);
#100=EDGE_LOOP('',(#94,#96,#98,#99));
#101=FACE_OUTER_BOUND('',#100,.F.);
#102=ADVANCED_FACE('',(#101),#92,.T.);
#103=CARTESIAN_POINT('',(0.E0,0.E0,-1.05E1));
#104=DIRECTION('',(0.E0,0.E0,1.E0));
#105=DIRECTION('',(0.E0,1.E0,0.E0));
#106=AXIS2_PLACEMENT_3D('',#103,#104,#105);
#107=CYLINDRICAL_SURFACE('',#106,2.5E1);
#108=ORIENTED_EDGE('',*,*,#93,.T.);
#110=ORIENTED_EDGE('',*,*,#109,.F.);
#111=ORIENTED_EDGE('',*,*,#97,.T.);
#113=ORIENTED_EDGE('',*,*,#112,.T.);
#114=EDGE_LOOP('',(#108,#110,#111,#113));
#115=FACE_OUTER_BOUND('',#114,.F.);
#116=ADVANCED_FACE('',(#115),#107,.T.);
#117=CARTESIAN_POINT('',(0.E0,0.E0,-5.E-1));
#118=DIRECTION('',(0.E0,0.E0,1.E0));
#119=DIRECTION('',(4.239516436717E-3,-9.999910132098E-1,0.E0));
#120=AXIS2_PLACEMENT_3D('',#117,#118,#119);
#121=TOROIDAL_SURFACE('',#120,2.45E1,5.E-1);
#122=ORIENTED_EDGE('',*,*,#109,.T.);
#123=ORIENTED_EDGE('',*,*,#83,.T.);
#124=ORIENTED_EDGE('',*,*,#68,.F.);
#125=ORIENTED_EDGE('',*,*,#80,.F.);
#126=EDGE_LOOP('',(#122,#123,#124,#125));
#127=FACE_OUTER_BOUND('',#126,.F.);
#128=ADVANCED_FACE('',(#127),#121,.T.);
#129=CARTESIAN_POINT('',(0.E0,0.E0,-1.E1));
#130=DIRECTION('',(0.E0,0.E0,1.E0));
#131=DIRECTION('',(0.E0,1.E0,0.E0));
#132=AXIS2_PLACEMENT_3D('',#129,#130,#131);
#133=PLANE('',#132);
#134=ORIENTED_EDGE('',*,*,#95,.T.);
#135=ORIENTED_EDGE('',*,*,#112,.F.);
#136=EDGE_LOOP('',(#134,#135));
#137=FACE_OUTER_BOUND('',#136,.F.);
#138=ADVANCED_FACE('',(#137),#133,.F.);
#139=CLOSED_SHELL('',(#72,#87,#102,#116,#128,#138));
#140=MANIFOLD_SOLID_BREP('',#139);
#142=DIMENSIONAL_EXPONENTS(0.E0,0.E0,0.E0,0.E0,0.E0,0.E0,0.E0);
#144=PLANE_ANGLE_MEASURE_WITH_UNIT(PLANE_ANGLE_MEASURE(1.745329251994E-2),#143);
#145=(CONVERSION_BASED_UNIT('DEGREE',#144)NAMED_UNIT(*)PLANE_ANGLE_UNIT());
#147=UNCERTAINTY_MEASURE_WITH_UNIT(LENGTH_MEASURE(7.168535320191E-3),#141,
'closure',
'Maximum model space distance between geometric entities at asserted connectivities');
#148=(GEOMETRIC_REPRESENTATION_CONTEXT(3)GLOBAL_UNCERTAINTY_ASSIGNED_CONTEXT((
#147))GLOBAL_UNIT_ASSIGNED_CONTEXT((#141,#145,#146))REPRESENTATION_CONTEXT
('ID1','3'));
#149=CARTESIAN_POINT('',(0.E0,0.E0,0.E0));
#150=DIRECTION('',(0.E0,0.E0,1.E0));
#151=DIRECTION('',(1.E0,0.E0,0.E0));
#154=APPLICATION_CONTEXT(
'CONFIGURATION CONTROLLED 3D DESIGNS OF MECHANICAL PARTS AND ASSEMBLIES');
#155=APPLICATION_PROTOCOL_DEFINITION('international standard',
'config_control_design',1994,#154);
#156=DESIGN_CONTEXT('',#154,'design');
#157=MECHANICAL_CONTEXT('',#154,'mechanical');
#158=PRODUCT('7005036-012','7005036-012','NOT SPECIFIED',(#157));
#159=PRODUCT_DEFINITION_FORMATION_WITH_SPECIFIED_SOURCE('5','LAST_VERSION',#158,
.MADE.);
#168=CARTESIAN_POINT('',(0.E0,0.E0,0.E0));
#169=DIRECTION('',(0.E0,0.E0,1.E0));
#170=DIRECTION('',(1.E0,0.E0,0.E0));
#171=AXIS2_PLACEMENT_3D('',#168,#169,#170);
#172=ITEM_DEFINED_TRANSFORMATION('','',#152,#171);
#173=(REPRESENTATION_RELATIONSHIP('','',#153,#165)REPRESENTATION_RELATIONSHIP_WITH_TRANSFORMATION(#172)SHAPE_REPRESENTATION_RELATIONSHIP());
#174=CONTEXT_DEPENDENT_SHAPE_REPRESENTATION(#173,#167);
#175=CARTESIAN_POINT('',(-3.E2,1.E2,0.E0));
#176=DIRECTION('',(0.E0,-1.E0,0.E0));
#177=DIRECTION('',(1.E0,0.E0,0.E0));
#178=AXIS2_PLACEMENT_3D('',#175,#176,#177);
#180=CARTESIAN_POINT('',(-3.E2,1.E2,0.E0));
#181=DIRECTION('',(0.E0,-1.E0,0.E0));
#182=DIRECTION('',(-1.E0,0.E0,0.E0));
#183=AXIS2_PLACEMENT_3D('',#180,#181,#182);
#185=DIRECTION('',(0.E0,1.E0,0.E0));
#186=VECTOR('',#185,6.E1);
#187=CARTESIAN_POINT('',(-2.89E2,4.E1,0.E0));
#188=LINE('',#187,#186);
#189=DIRECTION('',(0.E0,-1.E0,0.E0));
#190=VECTOR('',#189,6.E1);
#191=CARTESIAN_POINT('',(-3.11E2,1.E2,0.E0));
#192=LINE('',#191,#190);
#193=CARTESIAN_POINT('',(-3.E2,4.E1,0.E0));
#194=DIRECTION('',(0.E0,-1.E0,0.E0));
#195=DIRECTION('',(-1.E0,0.E0,0.E0));
#196=AXIS2_PLACEMENT_3D('',#193,#194,#195);
#198=CARTESIAN_POINT('',(-2.6E2,4.E1,0.E0));
#199=DIRECTION('',(0.E0,0.E0,1.E0));
#200=DIRECTION('',(-1.E0,0.E0,0.E0));
#201=AXIS2_PLACEMENT_3D('',#198,#199,#200);
#203=CARTESIAN_POINT('',(-3.E2,4.E1,0.E0));
#204=DIRECTION('',(0.E0,-1.E0,0.E0));
#205=DIRECTION('',(1.E0,0.E0,0.E0));
#206=AXIS2_PLACEMENT_3D('',#203,#204,#205);
#208=CARTESIAN_POINT('',(-2.6E2,4.E1,0.E0));
#209=DIRECTION('',(0.E0,0.E0,1.E0));
#210=DIRECTION('',(-1.E0,0.E0,0.E0));
#211=AXIS2_PLACEMENT_3D('',#208,#209,#210);
#213=CARTESIAN_POINT('',(-2.6E2,0.E0,0.E0));
#214=DIRECTION('',(1.E0,0.E0,0.E0));
#215=DIRECTION('',(0.E0,1.E0,0.E0));
#216=AXIS2_PLACEMENT_3D('',#213,#214,#215);
#218=DIRECTION('',(1.E0,0.E0,0.E0));
#219=VECTOR('',#218,5.2E2);
#220=CARTESIAN_POINT('',(-2.6E2,1.1E1,0.E0));
#221=LINE('',#220,#219);
#222=CARTESIAN_POINT('',(-2.6E2,0.E0,0.E0));
#223=DIRECTION('',(1.E0,0.E0,0.E0));
#224=DIRECTION('',(0.E0,-1.E0,0.E0));
#225=AXIS2_PLACEMENT_3D('',#222,#223,#224);
#227=DIRECTION('',(1.E0,0.E0,0.E0));
#228=VECTOR('',#227,5.2E2);
#229=CARTESIAN_POINT('',(-2.6E2,-1.1E1,0.E0));
#230=LINE('',#229,#228);
#231=CARTESIAN_POINT('',(2.6E2,0.E0,0.E0));
#232=DIRECTION('',(1.E0,0.E0,0.E0));
#233=DIRECTION('',(0.E0,-1.E0,0.E0));
#234=AXIS2_PLACEMENT_3D('',#231,#232,#233);
#236=CARTESIAN_POINT('',(2.6E2,4.E1,0.E0));
#237=DIRECTION('',(0.E0,0.E0,1.E0));
#238=DIRECTION('',(0.E0,-1.E0,0.E0));
#239=AXIS2_PLACEMENT_3D('',#236,#237,#238);
#241=CARTESIAN_POINT('',(2.6E2,0.E0,0.E0));
#242=DIRECTION('',(1.E0,0.E0,0.E0));
#243=DIRECTION('',(0.E0,1.E0,0.E0));
#244=AXIS2_PLACEMENT_3D('',#241,#242,#243);
#246=CARTESIAN_POINT('',(2.6E2,4.E1,0.E0));
#247=DIRECTION('',(0.E0,0.E0,1.E0));
#248=DIRECTION('',(0.E0,-1.E0,0.E0));
#249=AXIS2_PLACEMENT_3D('',#246,#247,#248);
#251=DIRECTION('',(0.E0,1.E0,0.E0));
#252=VECTOR('',#251,6.E1);
#253=CARTESIAN_POINT('',(2.89E2,4.E1,0.E0));
#254=LINE('',#253,#252);
#255=CARTESIAN_POINT('',(3.E2,4.E1,0.E0));
#256=DIRECTION('',(0.E0,1.E0,0.E0));
#257=DIRECTION('',(-1.E0,0.E0,0.E0));
#258=AXIS2_PLACEMENT_3D('',#255,#256,#257);
#260=CARTESIAN_POINT('',(3.E2,4.E1,0.E0));
#261=DIRECTION('',(0.E0,1.E0,0.E0));
#262=DIRECTION('',(1.E0,0.E0,0.E0));
#263=AXIS2_PLACEMENT_3D('',#260,#261,#262);
#265=DIRECTION('',(0.E0,1.E0,0.E0));
#266=VECTOR('',#265,6.E1);
#267=CARTESIAN_POINT('',(3.11E2,4.E1,0.E0));
#268=LINE('',#267,#266);
#269=CARTESIAN_POINT('',(3.E2,1.E2,0.E0));
#270=DIRECTION('',(0.E0,1.E0,0.E0));
#271=DIRECTION('',(-1.E0,0.E0,0.E0));
#272=AXIS2_PLACEMENT_3D('',#269,#270,#271);
#274=CARTESIAN_POINT('',(3.E2,1.E2,0.E0));
#275=DIRECTION('',(0.E0,1.E0,0.E0));
#276=DIRECTION('',(1.E0,0.E0,0.E0));
#277=AXIS2_PLACEMENT_3D('',#274,#275,#276);
#279=CARTESIAN_POINT('',(-2.89E2,1.E2,0.E0));
#280=CARTESIAN_POINT('',(-3.11E2,1.E2,0.E0));
#281=VERTEX_POINT('',#279);
#282=VERTEX_POINT('',#280);
#283=CARTESIAN_POINT('',(-2.89E2,4.E1,0.E0));
#284=CARTESIAN_POINT('',(-3.11E2,4.E1,0.E0));
#285=VERTEX_POINT('',#283);
#286=VERTEX_POINT('',#284);
#287=CARTESIAN_POINT('',(-2.6E2,1.1E1,0.E0));
#288=CARTESIAN_POINT('',(-2.6E2,-1.1E1,0.E0));
#289=VERTEX_POINT('',#287);
#290=VERTEX_POINT('',#288);
#291=CARTESIAN_POINT('',(2.6E2,1.1E1,0.E0));
#292=CARTESIAN_POINT('',(2.6E2,-1.1E1,0.E0));
#293=VERTEX_POINT('',#291);
#294=VERTEX_POINT('',#292);
#295=CARTESIAN_POINT('',(2.89E2,4.E1,0.E0));
#296=CARTESIAN_POINT('',(3.11E2,4.E1,0.E0));
#297=VERTEX_POINT('',#295);
#298=VERTEX_POINT('',#296);
#299=CARTESIAN_POINT('',(2.89E2,1.E2,0.E0));
#300=CARTESIAN_POINT('',(3.11E2,1.E2,0.E0));
#301=VERTEX_POINT('',#299);
#302=VERTEX_POINT('',#300);
#303=CARTESIAN_POINT('',(-3.E2,1.E2,0.E0));
#304=DIRECTION('',(0.E0,-1.E0,0.E0));
#305=DIRECTION('',(1.E0,0.E0,0.E0));
#306=AXIS2_PLACEMENT_3D('',#303,#304,#305);
#307=PLANE('',#306);
#309=ORIENTED_EDGE('',*,*,#308,.T.);
#311=ORIENTED_EDGE('',*,*,#310,.T.);
#312=EDGE_LOOP('',(#309,#311));
#313=FACE_OUTER_BOUND('',#312,.F.);
#314=ADVANCED_FACE('',(#313),#307,.F.);
#315=CARTESIAN_POINT('',(-3.E2,1.E2,0.E0));
#316=DIRECTION('',(0.E0,-1.E0,0.E0));
#317=DIRECTION('',(1.E0,0.E0,0.E0));
#318=AXIS2_PLACEMENT_3D('',#315,#316,#317);
#319=CYLINDRICAL_SURFACE('',#318,1.1E1);
#321=ORIENTED_EDGE('',*,*,#320,.F.);
#323=ORIENTED_EDGE('',*,*,#322,.T.);
#325=ORIENTED_EDGE('',*,*,#324,.F.);
#326=ORIENTED_EDGE('',*,*,#308,.F.);
#327=EDGE_LOOP('',(#321,#323,#325,#326));
#328=FACE_OUTER_BOUND('',#327,.F.);
#329=ADVANCED_FACE('',(#328),#319,.T.);
#330=CARTESIAN_POINT('',(-3.E2,1.E2,0.E0));
#331=DIRECTION('',(0.E0,-1.E0,0.E0));
#332=DIRECTION('',(1.E0,0.E0,0.E0));
#333=AXIS2_PLACEMENT_3D('',#330,#331,#332);
#334=CYLINDRICAL_SURFACE('',#333,1.1E1);
#335=ORIENTED_EDGE('',*,*,#320,.T.);
#336=ORIENTED_EDGE('',*,*,#310,.F.);
#337=ORIENTED_EDGE('',*,*,#324,.T.);
#339=ORIENTED_EDGE('',*,*,#338,.T.);
#340=EDGE_LOOP('',(#335,#336,#337,#339));
#341=FACE_OUTER_BOUND('',#340,.F.);
#342=ADVANCED_FACE('',(#341),#334,.T.);
#343=CARTESIAN_POINT('',(-2.6E2,4.E1,0.E0));
#344=DIRECTION('',(0.E0,0.E0,1.E0));
#345=DIRECTION('',(1.E0,0.E0,0.E0));
#346=AXIS2_PLACEMENT_3D('',#343,#344,#345);
#347=TOROIDAL_SURFACE('',#346,4.E1,1.1E1);
#348=ORIENTED_EDGE('',*,*,#338,.F.);
#350=ORIENTED_EDGE('',*,*,#349,.T.);
#352=ORIENTED_EDGE('',*,*,#351,.T.);
#354=ORIENTED_EDGE('',*,*,#353,.F.);
#355=EDGE_LOOP('',(#348,#350,#352,#354));
#356=FACE_OUTER_BOUND('',#355,.F.);
#357=ADVANCED_FACE('',(#356),#347,.T.);
#358=CARTESIAN_POINT('',(-2.6E2,4.E1,0.E0));
#359=DIRECTION('',(0.E0,0.E0,1.E0));
#360=DIRECTION('',(1.E0,0.E0,0.E0));
#361=AXIS2_PLACEMENT_3D('',#358,#359,#360);
#362=TOROIDAL_SURFACE('',#361,4.E1,1.1E1);
#363=ORIENTED_EDGE('',*,*,#322,.F.);
#364=ORIENTED_EDGE('',*,*,#353,.T.);
#366=ORIENTED_EDGE('',*,*,#365,.T.);
#367=ORIENTED_EDGE('',*,*,#349,.F.);
#368=EDGE_LOOP('',(#363,#364,#366,#367));
#369=FACE_OUTER_BOUND('',#368,.F.);
#370=ADVANCED_FACE('',(#369),#362,.T.);
#371=CARTESIAN_POINT('',(-2.6E2,0.E0,0.E0));
#372=DIRECTION('',(1.E0,0.E0,0.E0));
#373=DIRECTION('',(0.E0,1.E0,0.E0));
#374=AXIS2_PLACEMENT_3D('',#371,#372,#373);
#375=CYLINDRICAL_SURFACE('',#374,1.1E1);
#376=ORIENTED_EDGE('',*,*,#365,.F.);
#378=ORIENTED_EDGE('',*,*,#377,.T.);
#380=ORIENTED_EDGE('',*,*,#379,.T.);
#382=ORIENTED_EDGE('',*,*,#381,.F.);
#383=EDGE_LOOP('',(#376,#378,#380,#382));
#384=FACE_OUTER_BOUND('',#383,.F.);
#385=ADVANCED_FACE('',(#384),#375,.T.);
#386=CARTESIAN_POINT('',(-2.6E2,0.E0,0.E0));
#387=DIRECTION('',(1.E0,0.E0,0.E0));
#388=DIRECTION('',(0.E0,1.E0,0.E0));
#389=AXIS2_PLACEMENT_3D('',#386,#387,#388);
#390=CYLINDRICAL_SURFACE('',#389,1.1E1);
#391=ORIENTED_EDGE('',*,*,#351,.F.);
#392=ORIENTED_EDGE('',*,*,#381,.T.);
#394=ORIENTED_EDGE('',*,*,#393,.T.);
#395=ORIENTED_EDGE('',*,*,#377,.F.);
#396=EDGE_LOOP('',(#391,#392,#394,#395));
#397=FACE_OUTER_BOUND('',#396,.F.);
#398=ADVANCED_FACE('',(#397),#390,.T.);
#399=CARTESIAN_POINT('',(2.6E2,4.E1,0.E0));
#400=DIRECTION('',(0.E0,0.E0,1.E0));
#401=DIRECTION('',(0.E0,1.E0,0.E0));
#402=AXIS2_PLACEMENT_3D('',#399,#400,#401);
#403=TOROIDAL_SURFACE('',#402,4.E1,1.1E1);
#404=ORIENTED_EDGE('',*,*,#393,.F.);
#406=ORIENTED_EDGE('',*,*,#405,.T.);
#408=ORIENTED_EDGE('',*,*,#407,.T.);
#410=ORIENTED_EDGE('',*,*,#409,.F.);
#411=EDGE_LOOP('',(#404,#406,#408,#410));
#412=FACE_OUTER_BOUND('',#411,.F.);
#413=ADVANCED_FACE('',(#412),#403,.T.);
#414=CARTESIAN_POINT('',(2.6E2,4.E1,0.E0));
#415=DIRECTION('',(0.E0,0.E0,1.E0));
#416=DIRECTION('',(0.E0,1.E0,0.E0));
#417=AXIS2_PLACEMENT_3D('',#414,#415,#416);
#418=TOROIDAL_SURFACE('',#417,4.E1,1.1E1);
#419=ORIENTED_EDGE('',*,*,#379,.F.);
#420=ORIENTED_EDGE('',*,*,#409,.T.);
#422=ORIENTED_EDGE('',*,*,#421,.T.);
#423=ORIENTED_EDGE('',*,*,#405,.F.);
#424=EDGE_LOOP('',(#419,#420,#422,#423));
#425=FACE_OUTER_BOUND('',#424,.F.);
#426=ADVANCED_FACE('',(#425),#418,.T.);
#427=CARTESIAN_POINT('',(3.E2,4.E1,0.E0));
#428=DIRECTION('',(0.E0,1.E0,0.E0));
#429=DIRECTION('',(-1.E0,0.E0,0.E0));
#430=AXIS2_PLACEMENT_3D('',#427,#428,#429);
#431=CYLINDRICAL_SURFACE('',#430,1.1E1);
#433=ORIENTED_EDGE('',*,*,#432,.T.);
#435=ORIENTED_EDGE('',*,*,#434,.T.);
#437=ORIENTED_EDGE('',*,*,#436,.F.);
#438=ORIENTED_EDGE('',*,*,#421,.F.);
#439=EDGE_LOOP('',(#433,#435,#437,#438));
#440=FACE_OUTER_BOUND('',#439,.F.);
#441=ADVANCED_FACE('',(#440),#431,.T.);
#442=CARTESIAN_POINT('',(3.E2,4.E1,0.E0));
#443=DIRECTION('',(0.E0,1.E0,0.E0));
#444=DIRECTION('',(-1.E0,0.E0,0.E0));
#445=AXIS2_PLACEMENT_3D('',#442,#443,#444);
#446=CYLINDRICAL_SURFACE('',#445,1.1E1);
#447=ORIENTED_EDGE('',*,*,#432,.F.);
#448=ORIENTED_EDGE('',*,*,#407,.F.);
#449=ORIENTED_EDGE('',*,*,#436,.T.);
#451=ORIENTED_EDGE('',*,*,#450,.T.);
#452=EDGE_LOOP('',(#447,#448,#449,#451));
#453=FACE_OUTER_BOUND('',#452,.F.);
#454=ADVANCED_FACE('',(#453),#446,.T.);
#455=CARTESIAN_POINT('',(3.E2,1.E2,0.E0));
#456=DIRECTION('',(0.E0,1.E0,0.E0));
#457=DIRECTION('',(-1.E0,0.E0,0.E0));
#458=AXIS2_PLACEMENT_3D('',#455,#456,#457);
#459=PLANE('',#458);
#460=ORIENTED_EDGE('',*,*,#434,.F.);
#461=ORIENTED_EDGE('',*,*,#450,.F.);
#462=EDGE_LOOP('',(#460,#461));
#463=FACE_OUTER_BOUND('',#462,.F.);
#464=ADVANCED_FACE('',(#463),#459,.T.);
#465=CLOSED_SHELL('',(#314,#329,#342,#357,#370,#385,#398,#413,#426,#441,#454,
#464));
#466=MANIFOLD_SOLID_BREP('',#465);
#468=DIMENSIONAL_EXPONENTS(0.E0,0.E0,0.E0,0.E0,0.E0,0.E0,0.E0);
#470=PLANE_ANGLE_MEASURE_WITH_UNIT(PLANE_ANGLE_MEASURE(1.745329251994E-2),#469);
#471=(CONVERSION_BASED_UNIT('DEGREE',#470)NAMED_UNIT(*)PLANE_ANGLE_UNIT());
#473=UNCERTAINTY_MEASURE_WITH_UNIT(LENGTH_MEASURE(6.321843287519E-2),#467,
'closure',
'Maximum model space distance between geometric entities at asserted connectivities');
#474=(GEOMETRIC_REPRESENTATION_CONTEXT(3)GLOBAL_UNCERTAINTY_ASSIGNED_CONTEXT((
#473))GLOBAL_UNIT_ASSIGNED_CONTEXT((#467,#471,#472))REPRESENTATION_CONTEXT
('ID2','3'));
#475=CARTESIAN_POINT('',(0.E0,0.E0,0.E0));
#476=DIRECTION('',(0.E0,0.E0,1.E0));
#477=DIRECTION('',(1.E0,0.E0,0.E0));
#480=MECHANICAL_CONTEXT('',#154,'mechanical');
#481=PRODUCT('7005040-103','7005040-103','NOT SPECIFIED',(#480));
#482=PRODUCT_DEFINITION_FORMATION_WITH_SPECIFIED_SOURCE('5','LAST_VERSION',#481,
.MADE.);
#488=CARTESIAN_POINT('',(-3.E2,1.873708990372E-14,1.E2));
#489=DIRECTION('',(0.E0,1.E0,0.E0));
#490=DIRECTION('',(1.E0,0.E0,0.E0));
#491=AXIS2_PLACEMENT_3D('',#488,#489,#490);
#492=ITEM_DEFINED_TRANSFORMATION('','',#478,#491);
#493=(REPRESENTATION_RELATIONSHIP('','',#479,#165)REPRESENTATION_RELATIONSHIP_WITH_TRANSFORMATION(#492)SHAPE_REPRESENTATION_RELATIONSHIP());
#494=CONTEXT_DEPENDENT_SHAPE_REPRESENTATION(#493,#487);
#497=CARTESIAN_POINT('',(-6.E2,0.E0,0.E0));
#498=DIRECTION('',(0.E0,0.E0,1.E0));
#499=DIRECTION('',(1.E0,0.E0,0.E0));
#500=AXIS2_PLACEMENT_3D('',#497,#498,#499);
#501=ITEM_DEFINED_TRANSFORMATION('','',#152,#500);
#502=(REPRESENTATION_RELATIONSHIP('','',#153,#165)REPRESENTATION_RELATIONSHIP_WITH_TRANSFORMATION(#501)SHAPE_REPRESENTATION_RELATIONSHIP());
#503=CONTEXT_DEPENDENT_SHAPE_REPRESENTATION(#502,#496);
#504=CARTESIAN_POINT('',(0.E0,-2.98E2,0.E0));
#505=DIRECTION('',(0.E0,1.E0,0.E0));
#506=DIRECTION('',(1.E0,0.E0,0.E0));
#507=AXIS2_PLACEMENT_3D('',#504,#505,#506);
#509=CARTESIAN_POINT('',(0.E0,-2.98E2,0.E0));
#510=DIRECTION('',(0.E0,1.E0,0.E0));
#511=DIRECTION('',(-1.E0,0.E0,0.E0));
#512=AXIS2_PLACEMENT_3D('',#509,#510,#511);
#514=DIRECTION('',(0.E0,-1.E0,0.E0));
#515=VECTOR('',#514,5.96E2);
#516=CARTESIAN_POINT('',(-6.5E0,2.98E2,0.E0));
#517=LINE('',#516,#515);
#518=DIRECTION('',(0.E0,1.E0,0.E0));
#519=VECTOR('',#518,5.96E2);
#520=CARTESIAN_POINT('',(6.5E0,-2.98E2,0.E0));
#521=LINE('',#520,#519);
#522=CARTESIAN_POINT('',(0.E0,2.98E2,0.E0));
#523=DIRECTION('',(0.E0,1.E0,0.E0));
#524=DIRECTION('',(1.E0,0.E0,0.E0));
#525=AXIS2_PLACEMENT_3D('',#522,#523,#524);
#527=CARTESIAN_POINT('',(0.E0,2.98E2,0.E0));
#528=DIRECTION('',(0.E0,1.E0,0.E0));
#529=DIRECTION('',(-1.E0,0.E0,0.E0));
#530=AXIS2_PLACEMENT_3D('',#527,#528,#529);
#532=CARTESIAN_POINT('',(6.5E0,-2.98E2,0.E0));
#533=CARTESIAN_POINT('',(-6.5E0,-2.98E2,0.E0));
#534=VERTEX_POINT('',#532);
#535=VERTEX_POINT('',#533);
#536=CARTESIAN_POINT('',(6.5E0,2.98E2,0.E0));
#537=CARTESIAN_POINT('',(-6.5E0,2.98E2,0.E0));
#538=VERTEX_POINT('',#536);
#539=VERTEX_POINT('',#537);
#540=CARTESIAN_POINT('',(0.E0,-2.98E2,0.E0));
#541=DIRECTION('',(0.E0,1.E0,0.E0));
#542=DIRECTION('',(1.E0,0.E0,0.E0));
#543=AXIS2_PLACEMENT_3D('',#540,#541,#542);
#544=PLANE('',#543);
#546=ORIENTED_EDGE('',*,*,#545,.T.);
#548=ORIENTED_EDGE('',*,*,#547,.T.);
#549=EDGE_LOOP('',(#546,#548));
#550=FACE_OUTER_BOUND('',#549,.F.);
#551=ADVANCED_FACE('',(#550),#544,.F.);
#552=CARTESIAN_POINT('',(0.E0,-2.98E2,0.E0));
#553=DIRECTION('',(0.E0,1.E0,0.E0));
#554=DIRECTION('',(1.E0,0.E0,0.E0));
#555=AXIS2_PLACEMENT_3D('',#552,#553,#554);
#556=CYLINDRICAL_SURFACE('',#555,6.5E0);
#558=ORIENTED_EDGE('',*,*,#557,.T.);
#559=ORIENTED_EDGE('',*,*,#545,.F.);
#561=ORIENTED_EDGE('',*,*,#560,.T.);
#563=ORIENTED_EDGE('',*,*,#562,.T.);
#564=EDGE_LOOP('',(#558,#559,#561,#563));
#565=FACE_OUTER_BOUND('',#564,.F.);
#566=ADVANCED_FACE('',(#565),#556,.T.);
#567=CARTESIAN_POINT('',(0.E0,-2.98E2,0.E0));
#568=DIRECTION('',(0.E0,1.E0,0.E0));
#569=DIRECTION('',(1.E0,0.E0,0.E0));
#570=AXIS2_PLACEMENT_3D('',#567,#568,#569);
#571=CYLINDRICAL_SURFACE('',#570,6.5E0);
#572=ORIENTED_EDGE('',*,*,#557,.F.);
#574=ORIENTED_EDGE('',*,*,#573,.T.);
#575=ORIENTED_EDGE('',*,*,#560,.F.);
#576=ORIENTED_EDGE('',*,*,#547,.F.);
#577=EDGE_LOOP('',(#572,#574,#575,#576));
#578=FACE_OUTER_BOUND('',#577,.F.);
#579=ADVANCED_FACE('',(#578),#571,.T.);
#580=CARTESIAN_POINT('',(0.E0,2.98E2,0.E0));
#581=DIRECTION('',(0.E0,1.E0,0.E0));
#582=DIRECTION('',(1.E0,0.E0,0.E0));
#583=AXIS2_PLACEMENT_3D('',#580,#581,#582);
#584=PLANE('',#583);
#585=ORIENTED_EDGE('',*,*,#562,.F.);
#586=ORIENTED_EDGE('',*,*,#573,.F.);
#587=EDGE_LOOP('',(#585,#586));
#588=FACE_OUTER_BOUND('',#587,.F.);
#589=ADVANCED_FACE('',(#588),#584,.T.);
#590=CLOSED_SHELL('',(#551,#566,#579,#589));
#591=MANIFOLD_SOLID_BREP('',#590);
#593=DIMENSIONAL_EXPONENTS(0.E0,0.E0,0.E0,0.E0,0.E0,0.E0,0.E0);
#595=PLANE_ANGLE_MEASURE_WITH_UNIT(PLANE_ANGLE_MEASURE(1.745329251994E-2),#594);
#596=(CONVERSION_BASED_UNIT('DEGREE',#595)NAMED_UNIT(*)PLANE_ANGLE_UNIT());
#598=UNCERTAINTY_MEASURE_WITH_UNIT(LENGTH_MEASURE(5.962596382859E-2),#592,
'closure',
'Maximum model space distance between geometric entities at asserted connectivities');
#599=(GEOMETRIC_REPRESENTATION_CONTEXT(3)GLOBAL_UNCERTAINTY_ASSIGNED_CONTEXT((
#598))GLOBAL_UNIT_ASSIGNED_CONTEXT((#592,#596,#597))REPRESENTATION_CONTEXT
('ID3','3'));
#600=CARTESIAN_POINT('',(0.E0,0.E0,0.E0));
#601=DIRECTION('',(0.E0,0.E0,1.E0));
#602=DIRECTION('',(1.E0,0.E0,0.E0));
#605=DESIGN_CONTEXT('',#154,'design');
#606=MECHANICAL_CONTEXT('',#154,'mechanical');
#607=PRODUCT('7005042-093','7005042-093','NOT SPECIFIED',(#606));
#608=PRODUCT_DEFINITION_FORMATION_WITH_SPECIFIED_SOURCE('1','LAST_VERSION',#607,
.MADE.);
#614=CARTESIAN_POINT('',(-3.E2,0.E0,3.55E1));
#615=DIRECTION('',(0.E0,0.E0,1.E0));
#616=DIRECTION('',(0.E0,1.E0,0.E0));
#617=AXIS2_PLACEMENT_3D('',#614,#615,#616);
#618=ITEM_DEFINED_TRANSFORMATION('','',#603,#617);
#619=(REPRESENTATION_RELATIONSHIP('','',#604,#165)REPRESENTATION_RELATIONSHIP_WITH_TRANSFORMATION(#618)SHAPE_REPRESENTATION_RELATIONSHIP());
#620=CONTEXT_DEPENDENT_SHAPE_REPRESENTATION(#619,#613);
#622=DIMENSIONAL_EXPONENTS(0.E0,0.E0,0.E0,0.E0,0.E0,0.E0,0.E0);
#624=PLANE_ANGLE_MEASURE_WITH_UNIT(PLANE_ANGLE_MEASURE(1.745329251994E-2),#623);
#625=(CONVERSION_BASED_UNIT('DEGREE',#624)NAMED_UNIT(*)PLANE_ANGLE_UNIT());
#627=UNCERTAINTY_MEASURE_WITH_UNIT(LENGTH_MEASURE(6.833237188607E-2),#621,
'closure',
'Maximum model space distance between geometric entities at asserted connectivities');
#628=(GEOMETRIC_REPRESENTATION_CONTEXT(3)GLOBAL_UNCERTAINTY_ASSIGNED_CONTEXT((
#627))GLOBAL_UNIT_ASSIGNED_CONTEXT((#621,#625,#626))REPRESENTATION_CONTEXT
('ID4','3'));
#629=CARTESIAN_POINT('',(0.E0,0.E0,0.E0));
#630=DIRECTION('',(0.E0,0.E0,1.E0));
#631=DIRECTION('',(1.E0,0.E0,0.E0));
#633=MECHANICAL_CONTEXT('',#154,'mechanical');
#634=PRODUCT('JCA0540CH_ASM','JCA0540CH_ASM','NOT SPECIFIED',(#633));
#635=PRODUCT_DEFINITION_FORMATION_WITH_SPECIFIED_SOURCE('3','LAST_VERSION',#634,
.MADE.);
#637=PRODUCT_CATEGORY('part','');
#638=PRODUCT_RELATED_PRODUCT_CATEGORY('assembly','',(#634));
#639=PRODUCT_CATEGORY_RELATIONSHIP('','',#637,#638);
#640=PRODUCT_CATEGORY('part','');
#641=PRODUCT_RELATED_PRODUCT_CATEGORY('detail','',(#158,#481,#607));
#642=PRODUCT_CATEGORY_RELATIONSHIP('','',#640,#641);
#643=SECURITY_CLASSIFICATION_LEVEL('unclassified');
#644=SECURITY_CLASSIFICATION('','',#643);
#645=CC_DESIGN_SECURITY_CLASSIFICATION(#644,(#159,#482,#608,#635,#166,#486,#495,
#612));
#646=APPROVAL_STATUS('approved');
#647=APPROVAL(#646,'');
#648=CC_DESIGN_APPROVAL(#647,(#644,#159,#482,#608,#635,#160,#483,#609,#636));
#649=CALENDAR_DATE(120,9,12);
#650=COORDINATED_UNIVERSAL_TIME_OFFSET(8,0,.AHEAD.);
#651=LOCAL_TIME(15,6,3.8E1,#650);
#652=DATE_AND_TIME(#649,#651);
#653=APPROVAL_DATE_TIME(#652,#647);
#654=DATE_TIME_ROLE('creation_date');
#655=CC_DESIGN_DATE_AND_TIME_ASSIGNMENT(#652,#654,(#160,#483,#609,#636));
#656=DATE_TIME_ROLE('classification_date');
#657=CC_DESIGN_DATE_AND_TIME_ASSIGNMENT(#652,#656,(#644));
#658=PERSON('UNSPECIFIED','UNSPECIFIED',$,$,$,$);
#659=ORGANIZATION('UNSPECIFIED','UNSPECIFIED','UNSPECIFIED');
#660=PERSON_AND_ORGANIZATION(#658,#659);
#661=APPROVAL_ROLE('approver');
#662=APPROVAL_PERSON_ORGANIZATION(#660,#647,#661);
#663=PERSON_AND_ORGANIZATION_ROLE('creator');
#664=CC_DESIGN_PERSON_AND_ORGANIZATION_ASSIGNMENT(#660,#663,(#159,#482,#608,
#635,#160,#483,#609,#636));
#665=PERSON_AND_ORGANIZATION_ROLE('design_supplier');
#666=CC_DESIGN_PERSON_AND_ORGANIZATION_ASSIGNMENT(#660,#665,(#159,#482,#608,
#635));
#667=PERSON_AND_ORGANIZATION_ROLE('classification_officer');
#668=CC_DESIGN_PERSON_AND_ORGANIZATION_ASSIGNMENT(#660,#667,(#644));
#669=PERSON_AND_ORGANIZATION_ROLE('design_owner');
#670=CC_DESIGN_PERSON_AND_ORGANIZATION_ASSIGNMENT(#660,#669,(#634,#158,#481,
#607));
#5=CIRCLE('',#4,2.45E1);
#10=CIRCLE('',#9,2.45E1);
#15=CIRCLE('',#14,5.E-1);
#20=CIRCLE('',#19,2.5E1);
#29=CIRCLE('',#28,2.5E1);
#38=CIRCLE('',#37,5.E-1);
#43=CIRCLE('',#42,2.5E1);
#48=CIRCLE('',#47,2.5E1);
#66=EDGE_CURVE('',#59,#60,#5,.T.);
#68=EDGE_CURVE('',#60,#59,#10,.T.);
#78=EDGE_CURVE('',#55,#56,#20,.T.);
#80=EDGE_CURVE('',#56,#60,#38,.T.);
#83=EDGE_CURVE('',#55,#59,#15,.T.);
#93=EDGE_CURVE('',#52,#55,#24,.T.);
#95=EDGE_CURVE('',#51,#52,#43,.T.);
#97=EDGE_CURVE('',#56,#51,#33,.T.);
#109=EDGE_CURVE('',#56,#55,#29,.T.);
#112=EDGE_CURVE('',#51,#52,#48,.T.);
#141=(LENGTH_UNIT()NAMED_UNIT(*)SI_UNIT(.MILLI.,.METRE.));
#143=(NAMED_UNIT(*)PLANE_ANGLE_UNIT()SI_UNIT($,.RADIAN.));
#146=(NAMED_UNIT(*)SI_UNIT($,.STERADIAN.)SOLID_ANGLE_UNIT());
#152=AXIS2_PLACEMENT_3D('',#149,#150,#151);
#153=ADVANCED_BREP_SHAPE_REPRESENTATION('',(#152,#140),#148);
#160=PRODUCT_DEFINITION('design','',#159,#156);
#161=PRODUCT_DEFINITION_SHAPE('','SHAPE FOR 7005036-012.',#160);
#162=SHAPE_DEFINITION_REPRESENTATION(#161,#153);
#163=SHAPE_DEFINITION_REPRESENTATION(#164,#165);
#164=PRODUCT_DEFINITION_SHAPE('','SHAPE FOR JCA0540CH_ASM.',#636);
#165=SHAPE_REPRESENTATION('',(#171,#491,#500,#617,#632),#628);
#166=NEXT_ASSEMBLY_USAGE_OCCURRENCE('16','Next assembly relationship',
'7005036-012',#636,#160,$);
#167=PRODUCT_DEFINITION_SHAPE('Placement #16',
'Placement of 7005036-012 with respect to JCA0540CH_ASM',#166);
#179=CIRCLE('',#178,1.1E1);
#184=CIRCLE('',#183,1.1E1);
#197=CIRCLE('',#196,1.1E1);
#202=CIRCLE('',#201,5.1E1);
#207=CIRCLE('',#206,1.1E1);
#212=CIRCLE('',#211,2.9E1);
#217=CIRCLE('',#216,1.1E1);
#226=CIRCLE('',#225,1.1E1);
#235=CIRCLE('',#234,1.1E1);
#240=CIRCLE('',#239,5.1E1);
#245=CIRCLE('',#244,1.1E1);
#250=CIRCLE('',#249,2.9E1);
#259=CIRCLE('',#258,1.1E1);
#264=CIRCLE('',#263,1.1E1);
#273=CIRCLE('',#272,1.1E1);
#278=CIRCLE('',#277,1.1E1);
#308=EDGE_CURVE('',#281,#282,#179,.T.);
#310=EDGE_CURVE('',#282,#281,#184,.T.);
#320=EDGE_CURVE('',#285,#281,#188,.T.);
#322=EDGE_CURVE('',#285,#286,#207,.T.);
#324=EDGE_CURVE('',#282,#286,#192,.T.);
#338=EDGE_CURVE('',#286,#285,#197,.T.);
#349=EDGE_CURVE('',#286,#290,#202,.T.);
#351=EDGE_CURVE('',#290,#289,#226,.T.);
#353=EDGE_CURVE('',#285,#289,#212,.T.);
#365=EDGE_CURVE('',#289,#290,#217,.T.);
#377=EDGE_CURVE('',#289,#293,#221,.T.);
#379=EDGE_CURVE('',#293,#294,#245,.T.);
#381=EDGE_CURVE('',#290,#294,#230,.T.);
#393=EDGE_CURVE('',#294,#293,#235,.T.);
#405=EDGE_CURVE('',#294,#298,#240,.T.);
#407=EDGE_CURVE('',#298,#297,#264,.T.);
#409=EDGE_CURVE('',#293,#297,#250,.T.);
#421=EDGE_CURVE('',#297,#298,#259,.T.);
#432=EDGE_CURVE('',#297,#301,#254,.T.);
#434=EDGE_CURVE('',#301,#302,#273,.T.);
#436=EDGE_CURVE('',#298,#302,#268,.T.);
#450=EDGE_CURVE('',#302,#301,#278,.T.);
#467=(LENGTH_UNIT()NAMED_UNIT(*)SI_UNIT(.MILLI.,.METRE.));
#469=(NAMED_UNIT(*)PLANE_ANGLE_UNIT()SI_UNIT($,.RADIAN.));
#472=(NAMED_UNIT(*)SI_UNIT($,.STERADIAN.)SOLID_ANGLE_UNIT());
#478=AXIS2_PLACEMENT_3D('',#475,#476,#477);
#479=ADVANCED_BREP_SHAPE_REPRESENTATION('',(#478,#466),#474);
#483=PRODUCT_DEFINITION('design','',#482,#156);
#484=PRODUCT_DEFINITION_SHAPE('','SHAPE FOR 7005040-103.',#483);
#485=SHAPE_DEFINITION_REPRESENTATION(#484,#479);
#486=NEXT_ASSEMBLY_USAGE_OCCURRENCE('17','Next assembly relationship',
'7005040-103',#636,#483,$);
#487=PRODUCT_DEFINITION_SHAPE('Placement #17',
'Placement of 7005040-103 with respect to JCA0540CH_ASM',#486);
#495=NEXT_ASSEMBLY_USAGE_OCCURRENCE('18','Next assembly relationship',
'7005036-012',#636,#160,$);
#496=PRODUCT_DEFINITION_SHAPE('Placement #18',
'Placement of 7005036-012 with respect to JCA0540CH_ASM',#495);
#508=CIRCLE('',#507,6.5E0);
#513=CIRCLE('',#512,6.5E0);
#526=CIRCLE('',#525,6.5E0);
#531=CIRCLE('',#530,6.5E0);
#545=EDGE_CURVE('',#534,#535,#508,.T.);
#547=EDGE_CURVE('',#535,#534,#513,.T.);
#557=EDGE_CURVE('',#539,#535,#517,.T.);
#560=EDGE_CURVE('',#534,#538,#521,.T.);
#562=EDGE_CURVE('',#538,#539,#526,.T.);
#573=EDGE_CURVE('',#539,#538,#531,.T.);
#592=(LENGTH_UNIT()NAMED_UNIT(*)SI_UNIT(.MILLI.,.METRE.));
#594=(NAMED_UNIT(*)PLANE_ANGLE_UNIT()SI_UNIT($,.RADIAN.));
#597=(NAMED_UNIT(*)SI_UNIT($,.STERADIAN.)SOLID_ANGLE_UNIT());
#603=AXIS2_PLACEMENT_3D('',#600,#601,#602);
#604=ADVANCED_BREP_SHAPE_REPRESENTATION('',(#603,#591),#599);
#609=PRODUCT_DEFINITION('design','',#608,#605);
#610=PRODUCT_DEFINITION_SHAPE('','SHAPE FOR 7005042-093.',#609);
#611=SHAPE_DEFINITION_REPRESENTATION(#610,#604);
#612=NEXT_ASSEMBLY_USAGE_OCCURRENCE('19','Next assembly relationship',
'7005042-093',#636,#609,$);
#613=PRODUCT_DEFINITION_SHAPE('Placement #19',
'Placement of 7005042-093 with respect to JCA0540CH_ASM',#612);
#621=(LENGTH_UNIT()NAMED_UNIT(*)SI_UNIT(.MILLI.,.METRE.));
#623=(NAMED_UNIT(*)PLANE_ANGLE_UNIT()SI_UNIT($,.RADIAN.));
#626=(NAMED_UNIT(*)SI_UNIT($,.STERADIAN.)SOLID_ANGLE_UNIT());
#632=AXIS2_PLACEMENT_3D('',#629,#630,#631);
#636=PRODUCT_DEFINITION('design','',#635,#605);
ENDSEC;
END-ISO-10303-21;
